You Can't Have It All   Twilight of the Innocents
YOU CAN'T HAVE IT ALL - GUITAR TAB
Title: You Can't Have It All
Available On: You Can't Have It All, Twilight of the Innocents
First Released: April 2007
Lyrics: T. Wheeler
Music: T. Wheeler
Submitted by: Matthew Cherng and Chino
e-0-0-0-0-0-0-0-0-0-0-0-0-0-0-0-0-|-0-0-0-0-5-5-5-5-4-4-4-4-0-0-0-0-
B-5-5-5-5-5-5-5-5-5-5-5-5-0-0-0-0-|-5-5-5-5-5-5-5-5-5-5-5-5-5-5-5-5-
G---------------------------------|---------------------------------
D---------------------------------|---------------------------------
A---------------------------------|---------------------------------
E---------------------------------|---------------------------------

Am E
When I get high, you always bring me down
Am E
Everything I try hit the stony ground
Am E
Got me so confused and now you're feeling good
Am E
Ever changing moods, I don't know what I should do...



Am E
Scratches down my back, when we're making love
Am E
Give you all my time, but it's not enough
Am E
In and out of style, like the music scene
Am E
Feels like I'm living in a magazine

Dm G C F
You can't have it all
Dm G C F
You can't have it all
Dm G C F Am F# E
You can't have it all
Am D/F# E
Whoa-oh-oh-oh-oh

Am E
Voices in your head, always doubting me
Am E
Paranoid distortions of reality
Am E
You tell me all the time that there's something wrong
Am E
But you never know what you really want

Dm G C F
You can't have it all
Dm G C F
You can't have it all
Dm G C F
You can't have it all
Dm G C F Am F# E
You can't have it, you can't have it all
Am D/F# E
Whoa-oh-oh-oh-oh

e---------------------|-------------------|
B---------------------|-------------------|
G-9////-4////-5////-2-|-------------------| ....x2
D-x-----x-----x-----x-|-2-2-2-3-6-2-2-3-6-|
A-7////-2////-3////-0-|-2-2-2-3-6-2-2-3-6-|
E---------------------|-0-0-0-1-4-0-0-1-4-|


Dm G C F
You...can't...have...it...all
Dm G C F
You...can't...have...it...all

INTRO RIFF

Am E
I'm losing my mind, it comes too easily
Am E
Blaming someone else for your misery
Am E
Walking on eggshells until you're feeling bad
Am (STOP) Dm
This psycho drone is taking over my life

G C F
You can't have it all
Dm G C F
You can't have it all
Dm G C F
You can't have it all
Dm G C F Dm G C
You can't have it, you can't have it all

F Dm G C
You can't have it all
F Dm G C F Dm G C
You can't have it all

F Am F# E
You can't have it all


New to Ash Tabs? Click for Home Page   |   Close & back to Ash Guitar Tabs [x]