Meltdown
WON'T BE SAVED - BASS TAB
Title: Won't Be Saved
Available On: Meltdown
First Released: May 2004
Lyrics: T. Wheeler
Music: T. Wheeler
Submitted By: Colm Laverty
chorus

g|--------------------------|----------------|
d|--------------------------|----------------|
a|--6--6--------8-8-10--10--|--6--6--8-8-----|
e|--------8--8--------------|------------6~--| x2


verse
first part is silent (verse 1 only)

g|----------------|
d|----------------|
a|------------1~--|
e|--3--3--1-1-----| x3

g|----------------|
d|----------------|
a|------------6~--|
e|--3--3--1-1-----|


pre-chorus

g|----------------|
d|----------------|
a|--6--6--8-8-----|
e|------------6~--|


repeat chorus


post-chorus

g|--------------|--------------|
d|--------------|--------------|
a|--6--6--6--6--|--3--3--3--3--|
e|--------------|--------------|


repeat verse


pre-chorus

g|----------------|-------------------|
d|----------------|-------------------|
a|--6--6--8-8-----|-------------------|
e|------------6~--|--6-6-6-6-6-6-6-6--|


repeat chorus


post-chorus

g|-------------------|-------------------|
d|-------------------|-------------------|
a|--3-3-3-3-3-3-3-3--|-------------------|
e|-------------------|--3-3-3-3-1-1-1-1--|

g|-------------------|-------------------|
d|-------------------|-------------------|
a|--3-3-3-3-3-3-3-3--|--6-6-6-6-8-8-8-8--|
e|-------------------|-------------------|


verse (silent)

repeat pre-chorus

repeat chorus


interlude

g|-------------------|-------------------|
d|-------------------|-------------------|
a|--6-6-6-6-6-6-6-6--|--3-3-3-3-8-8-8-8--|
e|-------------------|-------------------|

g|-------------------|-------------------|
d|-------------------|-------------------|
a|--6-6-6-6-6-6-6-6--|----------8-8-8-8--|
e|-------------------|--8-8-8-8----------|

g|-------------------|-------------------|
d|-------------------|-------------------|
a|-------------------|--6-6-6-6-6-6-6-6--|
e|--6-6-6-6-6-6-6-6--|-------------------|


outro

g|-------------------|-------------------|
d|-------------------|-------------------|
a|--6-6-6-6-6-6-6-6--|--8-8-8-8-8-8-8-8--|
e|-------------------|-------------------|

g|-------|
d|-------|
a|-------|
e|--3~~--|

New to Ash Tabs? Click for Home Page   |   Close & back to Ash Guitar Tabs [x]