Warmer than Fire
Ash
(New Album)

1-----------------------------------------------------------------
2----------------------------------------------------------------
3----------------------------------------------------------------
4--------2----------2---------2-----------2--------------------
5--0-3----------0----------3----------0-----------------------
6----------------------------------------------------------------

Then Verse(the part with Tim with low voice) Riff (which I call A Riff) :
-C Am D C G F G C  X 2
1-------------------------------------------------------------------------10--12--10----------
2--------------12-h-13--12-------------------------------------------------------------12--13-
3-12-s-14-14----------------12-s-14-14--------------------------------------------------------
4-----------------------------------------12-h-14-12------------------------------------------
5---------------------------------------------------------14-s-15-15--------------------------
6---------------------------------------------------------------------------------------------
  X 2

 Then 2Nd Verse Riff (when Tim sings with normal voice) which includes(I suggest that this is played with the chorus effect  or something like that (in my ampli it calls so)):

Intro Riff  X 2 (it starts after "you know is true")
Then this (that i call B Riff):
C Am D C G F G C  X 2
1-----------------------------------------------------------------------------------------
2-------------10--10--8-------------------0---------------0---------------------------
3-------12-----------------9---------12-------------12--------------------------------
4--10---------------------------10-------------10--------------------------------------
5-----------------------------------------------------------------------------------------
6-----------------------------------------------------------------------------------------

then intro riff (X 1)

then the B Riff
 
then the chorus ( C Dm G F F G C)

then the intro riff X 2

then the B riff 

then the intro riff (X 1)

then the B riff

then the chorus X2

then the intro riff X 2

then it starts the Solo Part wich includes:
C Am D C G F G C X2
Intro riff (X 1)

Then the B riff

Then the intro riff (X 1)

Then the B Riff

The Solo Is (played on the above riffs):

1-------------------------------------------------------------------------------------------------
2-----------------------------10-s-12-s-10--------------------------------------------------------
37-s-9---7---------------------------------12-h-11-12-12----9-h-7----------------9-h-7-----------
4------------h10h9-10--10----------------------------------------------10-h-9-10-10--------10h9-10
5-------------------------------------------------------------------------------------------------
6-------------------------------------------------------------------------------------------------

this solo is played 2 times

chorus X 4
half chorus ( F F G C) X 2
then are played at the same time to the end these riff:
intro riff (X 1) and the B riff to the end (the B Riff Has Only One 10 12 0 played lower)
The A Riff to the end.
Hammer=h slide=s

Hey guys great song !!!! I think there' s some errors especially in the 2nd half of the intro riffs
 played in the song . I think there are some variations but could be the bass (hey I don' t
 play the bass!!) . In the solo too there are some strange things about hammer and slide but
 is right I think.

Tabbed By Tancre (the messageboard enjoyash)
enricotancredi@libero.it