Meltdown  Meltdown Bonus  Meltdown US
VAMPIRE LOVE - BASS TAB
Title: Vampire Love
Available On: Meltdown
First Released: May 2004
Lyrics: T. Wheeler
Music: T. Wheeler
Submitted By: Colm Laverty

intro (riff 1)

g|-----|-----|-------|---------------|
d|-----|-----|-------|---------------|
a|-----|-----|-------|---------5--7--|
e|--3--|--2--|--5/7--|--5-5/7--------|


chorus

g|-----|-----|-------|-----|
d|-----|-----|-------|-----|
a|-----|-----|-------|--5--|
e|--3--|--2--|--5/7--|-----|

g|-----|-----|
d|-----|-----|
a|-----|-----|
e|--3--|--2--|


verse 2 (riff 1)

chorus


bridge

g|---------|---------|---------|---------|
d|---------|---------|---------|---------|
a|---------|---------|---------|---------|
e|--5--8\--|--3--8\--|--2--8\--|--1--3/--|

g|-----|
d|-----|
a|-----|
e|--0--|


solo

g|--------------------|
d|--------------------|
a|--------------------|
e|--0-0-0--3-0-3-0-3--|


g|--------------------|--------------------|
d|--------------------|--------------------|
a|--------------------|--------------------|
e|--5-5-5--8-5-8-5-8--|--0-0-0--3-0-3-0-3--|


repeat riff 1

New to Ash Tabs? Click for Home Page   |   Close & back to Ash Guitar Tabs [x]