Meltdown  Starcrossed
STARCROSSED - BASS TAB
Title: Starcrossed
Available On: Meltdown, Starcrossed
First Released: May 2004
Lyrics: T. Wheeler
Music: T. Wheeler
Submitted By: Colm Laverty

intro

g|-----------------|----------------|
d|-----------------|----------------|
a|--3~~------------|----------------|
e|------3~~-1~~~~--|--5~~-3~~-1~~~--|


verse
part 1: one note per bar

g|-------|-------|-------|-------|
d|-------|-------|-------|-------|
a|-------|-------|--3~~--|--3~~--|
e|--1~~--|--1~~--|-------|-------| x2


part2: 8 notes per bar

g|-------|-------|-------|-------|
d|-------|-------|-------|-------|
a|-------|-------|-------|-------|
e|--5~~--|--1~~--|--0~~--|--0~~--|

g|-------|-------|-------|-------|
d|-------|-------|-------|-------|
a|-------|--3~~--|--5~~--|-------|
e|--1~~--|-------|-------|--3~~--|


chorus

g|-----------------|
d|-----------------|
a|--3~~------------|
e|------3~~-1~~~~--| x2

g|-----------------|-----------------|
d|-----------------|-----------------|
a|--3~~-----5~~~~--|-----------------|
e|------3~~--------|--0~~~~-1~~-3~~--|


repeat verse

repeat chorus


post-chorus

g|---------------|
d|---------------|
a|---------------|
e|--0~~~~-1~~~~--| x2


solo

g|----------------|
d|----------------|
a|----------------|
e|--5~~-3~~-1~~~--| x2


repeat chorus

repeat intro


end on

g|-------|-------|
d|-------|-------|
a|--5~~--|--3~~--|
e|-------|-------|

New to Ash Tabs? Click for Home Page   |   Close & back to Ash Guitar Tabs [x]