SINGAPORE SONG - GUITAR TAB
Title: Singapore Song
Available On: Never released, demoed for both Free All Angels and Meltdown
First Released: Only airing at Ashtoria, London, January 2000
Lyrics: T. Wheeler (unconfirmed)
Music: T. Wheeler (unconfirmed)
Submitted by: Chinny

Capo 7th fret

Verse:

-----6--6--6--4---------4--4--4--2--|--4--4--4--2
-----4--4--4--4---------2--2--2--2--|--2--2--2--2(cant work out the
-----4--4--4--4---------3--3--3--3--|--2--2--2--2 end of the verse)
---6-6--6--6--6-------4-4--4--4--4--|--4--4--4--4
------------------------------------|------------
------------------------------------|------------
Main Riff Prechorus "choirs of angels"

Chorus (i think)
------------------|------------------|-------------
-----5------------|------------------|-------------
--6--6--6--1------|---6--1--6--1-----|-------------
--6--6--7--2------|---6--2--7--2-----|---6--4--4--6
--6--4--7--2------|---6--2--7--2-----|---6--4--4--6
--4-----5--0------|---4--0--5--0-----|---4--2--2--4
Tide of Slip between Bassline after chorus
Forgetfulness consciousness
In the bloodstream Fade in and out dreams



New to Ash Tabs? Click for Home Page   |   Close & back to Ash Guitar Tabs [x]