Twilight of the Innocents
RITUAL - GUITAR TAB
Title: Ritual
Available On: Twilight of the Innocents
First Released: July 2007
Lyrics: T. Wheeler
Music: T. Wheeler
Submitted by: Matthew Cherng

[palm muting throughout]

e----------------------------------|----------------------------------|
B-----1---0-----1---1---0----------|-----1---0-----1---1---0----------|
G-----------0-------------0---0----|-----------2-------------2-0-2----|
D---2---2-----2---2---2-----2------|---2---2-----2---2---2------------|
A-3--------------------------------|-0--------------------------------|
E----------------------------------|----------------------------------|

e-----1---0-----1---1---0----------|------------------------------|
B-----------1-------------1---1----|-----1---0-----1---1---0------|
G---2---2-----2---2---2-----2------|-----------0-------------2-0--|
D-0--------------------------------|---0---0-----0---0---0--------|
A----------------------------------|------------------------------|
E----------------------------------|-3----------------------------|

New to Ash Tabs? Click for Home Page   |   Close & back to Ash Guitar Tabs [x]