Meltdown  Meltdown Bonus  Meltdown US
RENEGADE CAVALCADE - BASS TAB
Title: Renegade Cavalcade
Available On: Meltdown
First Released: May 2004
Lyrics: T. Wheeler
Music: T. Wheeler
Submitted By: Colm Laverty
verse 1 (first part silent)

g|-----|----------|
d|-----|----------|
a|-----|--7--5-4--|
e|--7--|----------|


pre-chorus

g|--------------------|
d|--------------------|
a|--7-7-7-7--5-5-5-5--|
e|--------------------|


chorus

1.
g|-----------------------|
d|-----------------------|
a|--5-5--7-7-------------|
e|------------7-7--3--5--| x2

2.
g|-----------------------|
d|-----------------------|
a|--5-5--7-7-------------|
e|------------2-2--3--5--| x2


verse 2 (first part silent)

g|--------------|---------------|
d|--------------|---------------|
a|--------------|--7--5/7--4/5--|
e|--7----5-7-5--|---------------|


chorus 2 (part 2. is played only once. part 1. is played instead)


bridge

g|-----|-----|-----|-----|
d|-----|-----|-----|-----|
a|--5--|-----|-----|-----|
e|-----|--7--|--5--|--2--|

g|-----|-----|-----|-----|
d|-----|-----|-----|-----|
a|-----|-----|-----|-----|
e|--3--|--0--|--5--|--5--|


middle 8

g|-----------------|----------------|
d|-----------------|----------------|
a|----------5-5----|--7-7-7--5-5-5--|
e|--7--5-7------7--|----------------|


verse 3 (repeat verse 2)

repeat chorus 2

play bridge x2

play middle 8 x1


New to Ash Tabs? Click for Home Page   |   Close & back to Ash Guitar Tabs [x]