Polaris  Twilight of the Innocents
POLARIS - BASS TAB
Title: Polaris
Available On: Polaris, Twilight of the Innocents
First Released: June 2007
Lyrics: T. Wheeler
Music: T. Wheeler
Submitted By: Jack Nicholson

Verse
G|----------------------------------------------
D|----------------------------------------------
A|-4-44-4-44--6-66-6-66-------------8-88--------
E|-----------------------6-66-6-66-------8-88---
G|----------------------------------------------
D|----------------------------------------------
A|-4-44-4-44--6-66-6-66-------------8-88--------
E|-----------------------6-66-6-66-------8-88---
G|----------------------------------------------
D|----------------------------------------------
A|-4-44-4-44--6-66-6-66-------------8-88--------
E|-----------------------6-66-6-66-------8-88---
Chorus
G|--------------------------
D|--------------------------
A|--1-11--3-33--------------
E|--------------3-33--5-55--
G|--------------------------
D|--------------------------
A|--1-11--3-33--------------
E|--------------3-33--5-55--
G|--------------------------
D|--------------------------
A|--3-33--5-55--------------
E|--------------5-55--7-77--
G|--------------------------
D|--------------------------
A|--5-55--7-77--------------
E|--------------7-77--9-99--
Second Verse
G|----------------------------------------------
D|----------------------------------------------
A|-4-44-4-44--6-66-6-66-------------8-88--------
E|-----------------------6-66-6-66-------8-88---
G|----------------------------------------------
D|----------------------------------------------
A|-4-44-4-44--6-66-6-66-------------8-88--------
E|-----------------------6-66-6-66-------8-88---
G|----------------------------------------------
D|----------------------------------------------
A|-4-44-4-44--6-66-6-66-------------8-88--------
E|-----------------------6-66-6-66-------8-88---
Chorus
G|--------------------------
D|--------------------------
A|--1-11--3-33--------------
E|--------------3-33--5-55--
G|--------------------------
D|--------------------------
A|--1-11--3-33--------------
E|--------------3-33--5-55--
G|--------------------------
D|--------------------------
A|--3-33--5-55--------------
E|--------------5-55--7-77--
G|--------------------------
D|--------------------------
A|--5-55--7-77--------------
E|--------------7-77--9-99--
Third Verse
G|------------------------------------------------------------------------
D|------------------------------------------------------------------------
A|--4--6--------4--6--------4--6--------4--6--------4--6--------4-4-4-4-4-
E|--------6--8--------6--8--------6--8--------6--8--------6--8------------
Chorus
G|--------------------------
D|--------------------------
A|--1-11--3-33--------------
E|--------------3-33--5-55--
G|--------------------------
D|--------------------------
A|--1-11--3-33--------------
E|--------------3-33--5-55--
G|--------------------------
D|--------------------------
A|--3-33--5-55--------------
E|--------------5-55--7-77--
G|--------------------------
D|--------------------------
A|--5-55--7-77--------------
E|--------------7-77--9-99--
G|-----------
D|-----------
A|--1--3-----
E|--------3--

Not Exact but close enough

New to Ash Tabs? Click for Home Page   |   Close & back to Ash Guitar Tabs [x]