Orpheus  Meltdown  Meltdown Bonus  Meltdown US
ORPHEUS - BASS TAB
Title: Orpheus
Available On: Orpheus, Meltdown
First Released: May 2004
Lyrics: T. Wheeler
Music: T. Wheeler
Submitted By: Colm Laverty

intro (riff 1)

g|-------------------------------|
d|-------------------------------|
a|--7--5--7--5-7-5-7-5-7-5-------|
e|--------------------------7\0--|


riff 2

g|---------------------------|
d|---------------------------|
a|-----7--7-5-5\-------------|
e|--0-------------3--2--(0)--|


verses

low E     and  A
e|--0--|       e|--5--|

im not sure of the exact notes, though.


chorus

g|-----------------------------|
d|-----------------------------|
a|--4--4--4-4-4--2-2--2--2--2--|
e|-----------------------------|

g|-----|-----|
d|-----|-----|
a|-----|-----|
e|--5--|--2--|

the second bar leads back into riff 2


verse 2 same as 1

chorus 2


interlude

g|------------|-----|
d|------------|-----|
a|------------|--0--|
e|--3--2-(0)--|-----|


riff 1


bridge

g|-----------------|-----------------|-----------------|-----------------|
d|-----------------|-----------------|-----------------|-----------------|
a|-----------------|-----------------|--4--4--4-4-4-0--|--2--2--2-0-2-0--|
e|--2--2--2-0-2-0--|--2--2--2-0-2-0--|-----------------|-----------------|


g|-----------------|-----------------|-----------------|-----------------|
d|-----------------|-----------------|-----------------|-----------------|
a|-----------------|-----------------|--4--4--4-4-4-0--|--2--2--2-0-2-0--|
e|--5--5--5-5-5-5--|--5--5--5-5-5-5--|-----------------|-----------------|

g|-----------------|-----|
d|-----------------|-----|
a|-----------------|-----|
e|--5--5--5-5-5-5--|--5--|


chorus 3

New to Ash Tabs? Click for Home Page   |   Close & back to Ash Guitar Tabs [x]