Meltdown  Meltdown Bonus  Meltdown US
ON A WAVE - BASS TAB
Title: On A Wave
Available On: Meltdown
First Released: May 2004
Lyrics: T. Wheeler
Music: T. Wheeler
Submitted By: Colm Laverty

i think this is pretty accurate.
you should be able to figure out the rhythm for yourselves.


verse

g|--------------------------------|
d|--------------------------------|
a|----------3-2----------------2--|
e|--0--0-0------5--5-5-5-5-3-5----|


chorus

g|---------------------------------------------------|
d|---------------------------------------------------|
a|--7--7-7-7-7--3--3-3-----------------------3--3-3--|
e|---------------------3--3-3--2--2-2--1--1----------|


bridge

g|---------------------------------------|
d|---------------------------------------|
a|--3--3-3--5--5----------5--5--3--3--2--|
e|----------------5--5-5-----------------|


just before solo

g|-----------------------------|
d|-----------------------------|
a|--3--3--3-3-3-3--3--3-3-3-3--|
e|-----------------------------|

g|--------------------|
d|--------------------|
a|--------------------|
e|--0-0-0-0--0-0-0-0--|

New to Ash Tabs? Click for Home Page   |   Close & back to Ash Guitar Tabs [x]