Meltdown  Meltdown Bonus  Meltdown US  Commando EP
MELTDOWN - BASS TAB
Title: Meltdown
Available On: Meltdown, Commando EP
First Released: May 2004
Lyrics: T. Wheeler / C. Hatherley
Music: T. Wheeler / C. Hatherley
Submitted By: Colm Laverty

pretty easy. there's only about 3 notes in the whole song


intro

g|--------------------------------------|
d|--------------------------------------|
a|--3--5-5-5-5-5-5-5-5-5-5-5-5-5-5-5-5--|
e|--------------------------------------|


verse/chorus

g|------------------------------------|
d|--------------------------3-3-3-----|
a|--5-5-5-5--5-5-5-5-5-5-5---------5--|
e|------------------------------------|

g|------------------------------------|
d|------------------------------------|
a|--5-5-5-5--5-5-5-5-5-5-5--3-3-3--5--|
e|------------------------------------|



g|---------------|
d|---------------|
a|--5-5-5-5--5\--|
e|---------------|


("Revolution, We're the solution")

interlude (before verse 2)

g|--------------------------------------|
d|--------------------------------------|
a|--3--3-3-3-3-3-3-3-3-3-3-3-3-3-5-5-5--|
e|--------------------------------------|

g|--------------------------------------|
d|-------------------------------3-3-3--|
a|--3--3-3-3-3-3-3-3-3-3-3-3-3-3--------|
e|--------------------------------------|


bridge

g|---------------------------------|
d|-----------------3--3-3-3-3-3-3--|
a|--3--3-3-3-3-3-3-----------------|
e|---------------------------------|

g|------------|------------|
d|------------|------------|
a|------------|------------|
e|--3--3-1-2--|--3--3-1-2--|

(repeat x3)


before verse 3

g|---------------------------------|
d|-----------------3--3-3-3-3-3-3--|
a|--3--3-3-3-3-3-3-----------------|
e|---------------------------------|

g|-----------------------------------|
d|--5-5-5-5-5-5-5-5-5-5-5-5-5-5-5-5--|
a|-----------------------------------|
e|-----------------------------------|


during final chorus, this can be played

g|------------------------------------|
d|--------------------------3-3-3-----|
a|--5-5-5-5--5-5-5-5-5-5-5---------5--|
e|------------------------------------|

g|--7--7-7-7-7-7-10-7-5-7------|
d|------------------------7----|
a|--------------------------5--|
e|-----------------------------|


New to Ash Tabs? Click for Home Page   |   Close & back to Ash Guitar Tabs [x]