Jack Names the Planets   Trailer   Intergalantic Sonic 7s   Jack Names the Planets Re-release
JACK NAMES THE PLANETS - GUITAR TAB
Title: Jack Names the Planets
Available On: Jack Names the Planets 7", Trailer, Intergalantic Sonic 7"s, Jack Names the Planets Re-release
First Released: February 1994
Lyrics: T. Wheeler
Music: T. Wheeler
E5 x799xx
B5 x244xx
A5 x022xx

G  355433
C  x3555x
A  577655
G  x5777x

Eb x6888x
Bb 688766

F  x8101010x
C* 81010988

INTRO 

E5 B5 E5 A5 

E5 B5 E5 A5 

E5 A5 E5 A5

E5
We were walking, walking in two worlds,
E5
In the gardens of sunlight home,
E5
Bad children on the phone,
E5
Withheld me to withhold you,
E5        B5      E5       A5
Said I'd kiss you if you want,
E5            B5    E5       A5
You've got things back to front,
E5        B5     E5       A5
I got a letter, sent it back,
E5          B5         E5       A5
I didn't like it honey what you had


G     C           A      D
Jack names the planets after you
G     C           A      D
Jack names the planets after you
G     C           A      D
Jack names the planets after you
G     C           A      D        Eb   Bb
Jack names the planets after you, you, you

E5
When I turned you had gone away,
E5
So I didn't skip upon that day,
E5
Morose feelings, small mind,
E5
Don't touch his face, you might like his kind,
E5        B5      E5       A5
Said I'd kiss you if you want,
E5            B5    E5       A5
You've got things back to front,
E5                 B5        E5       A5
Don't mind your spelling it ain't so bad
E5              B5            E5             A5
Things like that they never make me quite so mad as you


G     C           A      D
Jack names the planets after you
G     C           A      D
Jack names the planets after you
G     C           A      D
Jack names the planets after you
G     C           A      D        Eb   Bb
Jack names the planets after you, you, you


SOLO (RIFF E5 B5 A5 B5 x4)

E[------------------------------------------------
B[------------------------------------------------
G[----9-9-9-11-------------9------------9-----9---
D[-------------11---11--------11---9-------7------
A[------------------------------------------------
E[------------------------------------------------

E[------------------------------------------------
B[------9--9--------------------------------10----
G[-----------11-------------------------9---------
D[-6-------------11----11-------------------------
A[---------------------------11--11---------------
E[------------------------------------------------

E[------------------------------------------------
B[------------------------------------------------
G[----9-9-9-11-------------9------------9-----9---
D[-------------11---11--------11---9-------7------
A[------------------------------------------------
E[------------------------------------------------

E[------------------------------------------------
B[------------------------------------------------
G[------------7-----------------------------------
D[----6----7-------7--6---------------------------
A[------------------------7---5-------------------
E[-------------------------------7--5--3--3---0---


E5
I wish you'd come back, everythings ready for you
E5
You are welcome if you plan to,
E5
You can come walking and you know where
E5
You've got to understand that you got to care,
E5        B5      E5       A5
Said I'd kiss you if you want,
E5            B5    E5       A5
You've got things back to front,
E5            B5    E5       A5
My mothers dying I've got to go home,
E5             B5            E5             A5
But theres more you won't be solely on your own.


G     C           A      D
Jack names the planets after you
G     C           A      D
Jack names the planets after you
G     C           A      D
Jack names the planets after you
G     C           A      D        Eb  Bb
Jack names the planets after you, you, you 

F   C*    F   C*    Eb  Bb    F   C*
you_____, you_____, you_____, you_____, 

Eb  Bb    F   C*    Eb  Bb    F   C*   E5 (strike once)
you_____, you_____, you_____, you_____, 



New to Ash Tabs? Click for Home Page   |   Close & back to Ash Guitar Tabs [x]