Envy CD2
I SHALL NOT DIE - GUITAR TAB
Title: I Shall Not Die
Available On: Envy CD2
First Released: August 2002
Lyrics: 13th Century anon. Translated from Gaelic O'Connor (1903 - 1966). Adapted by T. Wheeler / Estate of Frank O'Connor
Music: T. Wheeler
Submitted by: Chinny

Capo 7th fret

Verse:

-3-|----------3-------|
-3-|------3-----3---3-|
-4-|---4----4-----4---|
-5-|------------------|
-5-|------------------|
-3-|-3----------------|

-5-|---------5--------|
-3-|-----3-----3---3--|
-4-|---4---4-----4----|
-5-|------------------|
-5-|------------------|
-3-|-3----------------|

-3-|-3-|--------3------|
-5-|-5-|-----5----5---5|
-4-|-5-|---5---5----5--|
-5-|-5-----------------|
-3-|-3-|-3-------------|
-x-|-x-|---------------| 

Bridge:

-------------------------|--------
----------3------2------0|-3--2--0
------0-----0--0---0--2--|-0--0--2
----2---2-----2----------|-2--2--2
-------------------------|-2--2---
--0----------------------|-0------

----------2------|-2-
------3-----3---3|-3-
----4---4-----4--|-4-
-----------------|-4-
--2--------------|-2-
-----------------|-x-

----------0-------|-0
------2-----2---2-|-2
----2---2-----2---|-2
------------------|-2
--0---------------|-0
------------------|-x



New to Ash Tabs? Click for Home Page   |   Close & back to Ash Guitar Tabs [x]