Meltdown  Meltdown Bonus  Meltdown US  Commando EP
EVIL EYE - BASS TAB
Title: Evil Eye
Available On: Meltdown, Commando EP
First Released: May 2004
Lyrics: T. Wheeler
Music: T. Wheeler
Submitted By: Colm Laverty

verse 1 - bass is silent


chorus 1

g|-------------------------|
d|-------------------------|
a|-------------------------|
e|--5/6--5/6--5/6--5/6--5--|

g|---------------------------------------|
d|---------------------------------------|
a|--1-1-1-1--------------------5-5--3-3--|
e|-----------1-1-1-1--5-5-5-5------------|


verse 2

g|--------------------|
d|--------------------|
a|--5--5/8--8\0--0/5--|
e|--------------------|


chorus 2 same as 1st


bridge

g|-----------------------------|
d|-----------------------------|
a|--5-3-0------5--x-x-x-x-x-x--|
e|---------3-1----x-x-x-x-x-x--|


g|-----------------------|
d|-----------------------|
a|--1-1-1-1--3-3-3--6-5--|
e|-----------------------|

repeat 3x. on last time, play:

g|-----------------------|--------------------|
d|-----------------------|--------------------|
a|--1-1-1-1--3-3-3--6-8--|--7-7-7-7--6-6-6-6--|
e|-----------------------|--------------------|


extended chorus 3

New to Ash Tabs? Click for Home Page   |   Close & back to Ash Guitar Tabs [x]