Meltdown  Meltdown Bonus  Meltdown US
DETONATOR - BASS TAB
Title: Detonator
Available On: Meltdown
First Released: May 2004
Lyrics: T. Wheeler
Music: T. Wheeler
Submitted By: Colm Laverty

tuning = drop D

rhythm is pretty easy to figure out


intro

g|--------------|--------------|
d|--------------|--------------|
a|--------------|--------------|
d|--0-0-0--3-3--|--2-2-2--1-1--|

g|--------------|--------------|
d|--------------|--------------|
a|--------------|--------------|
d|--0-0-0--3-3--|--5-5-5--7-7--|


verse 1 

g|--------------|----------------|
d|--------------|----------------|
a|--------------|----------------|
d|--0-0-0--3-3--|--2-2-2---------|


chorus

  C     G     B     F
g|-----|-----|-----|-----|
d|-----|-----|-----|-----|
a|--3--|-----|--2--|-----|
d|-----|--5--|-----|--2--|


verse 2 (same as #1)

chorus

repeat intro

solo (same as verse 1)


verse 3
(same as verse 1. at first, the two bars are followed by two bars of silence. then, the verse is played as normal)


chorus x2


New to Ash Tabs? Click for Home Page   |   Close & back to Ash Guitar Tabs [x]