Clones  Meltdown
CLONES - BASS TAB
Title: Clones
Available On: Clones, Meltdown
First Released: February 2004
Lyrics: T. Wheeler
Music: T. Wheeler
Submitted By: Colm Laverty

TUNING: DROP C


intro

g|-----|-------|-----|-------|
d|-----|-------|-----|-------|
a|-----|-------|-----|-------|
c|--0--|--0-0--|--0--|--0-0--|


riff 1 + verse 

g|---------------------------|
d|---------------------------|
a|---------------------------|
c|--3-0-3-0-3-0--2-0-2--2-0--|


interlude

g|------------|----------------|
d|------------|----------------|
a|------------|----------------|
c|--8--10-12--|--8--10--13-12--| x2


chorus

g|-------------|-------------|-------------|
d|-------------|-------------|-------------|
a|-------------|-------------|-------------|
c|--5~~-8--10--|--5~~-10--8--|--3~~-13--8--|


repeat verse

repeat interlude

repeat chorus


bridge

g|-----|-------|-------|-----|
d|-----|-------|-------|-----|
a|-----|-------|-------|-----|
c|--0--|--0-0--|--0-0--|--0--|


repeat riff 1 (palm muted)

repeat riff 1

repeat interlude

repeat chorus

repeat riff 1

New to Ash Tabs? Click for Home Page   |   Close & back to Ash Guitar Tabs [x]